#----------------------------------PLEASE NOTE---------------------------------#
#This file is the author's own work and represents their interpretation of the #
#song. You may only use this file for private study, scholarship, or research. #
#------------------------------------------------------------------------------#







||----------------------------------|--------------------------------------------||--|
||o-6-6-6-6---------6-6-6-6---------|-------------------------------------------o||--|
||----------7-7-7-7---------7-7-7-7-|-------------9--10-9--12-12-12-12-12-10-9---||--|
||----------------------------------|-7--7--7--7---------------------------------||--|
||o---------------------------------|-------------------------------------------o||--|
||----------------------------------|--------------------------------------------||--|
|
||----------------------------------|--------------------------------------------||--|
||o---------------------------------|-------------------------------------------o||--|
||----------------------------------|--------------------------------------------||--|
||--7-7-7-7-7-7-7-7-7-7-7-7-7-7-7-7-|-10-10-10-10-10-10-10-----------------------||--|
||o-5-5-5-5-5-5-5-5-5-5-5-5-5-5-5-5-|--8--8--8--8--8--8--8-10-10-10-10-10-10-10-o||--|
||----------------------------------|-----------------------8--8--8--8--8--8--8--||--|


|------------------------------------------------------------------|
|-------6-6-----------------------------6-6------------------------|
|-7-7-7-----7-7-10-10-9-9-7-7-9-9-7-7-7-----7-7-10-10-9-9-7-7-9-9--|
|------------------------------------------------------------------|
|------------------------------------------------------------------|
|------------------------------------------------------------------|
|
|------------------------------------------------------------------|
|------------------------------------------------------------------|
|------------------------------------------------------------------|
|-----------------------------------7-7-7-7-7-7-7--7--7-7-7-7-7-7--|
|-----------------------------------5-5-5-5-5-5-5--5--5-5-5-5-5-5--|
|------------------------------------------------------------------|


|------------------------------------------------------------------------------|
|------------------------------------------------------------------------------|
|-9-9-9-12-12-9-9-12-12-10-10-9-9-10-10-9-9-9-12-12-9-9-12-12-10-10-9-9-10-10--|
|------------------------------------------------------------------------------|
|------------------------------------------------------------------------------|
|------------------------------------------------------------------------------|
|
|------------------------------------------------------------------------------|
|------------------------------------------------------------------------------|
|------------------------------------------------------------------------------|
|-5-5-5-5--5--5-5-5--5--5--5--5-5-5--5--5-5-5-5--5--5-5-5--5--5--5--5-5-5--5---|
|-3-3-3-3--3--3-3-3--3--3--3--3-3-3--3--3-3-3-3--3--3-3-3--3--3--3--3-3-3--3---|
|------------------------------------------------------------------------------|


||-------------------------------------------------------------------|
||o-------6-6-----------------------------6-6------------------------|
||--7-7-7-----7-7-10-10-9-9-7-7-9-9-7-7-7-----7-7-10-10-9-9-7-7-9-9--|
||-------------------------------------------------------------------|
||o------------------------------------------------------------------|
||-------------------------------------------------------------------|
|
||-------------------------------------------------------------------|
||o------------------------------------------------------------------|
||-------------------------------------------------------------------|
||--7-7-7-7-7-7-7-7--7--7-7-7-7-7-7-7-7-7-7-7-7-7-7--7--7-7-7-7-7-7--|
||o-5-5-5-5-5-5-5-5--5--5-5-5-5-5-5-5-5-5-5-5-5-5-5--5--5-5-5-5-5-5--|
||-------------------------------------------------------------------|


|------------------------------------------------------------------------------||--|
|-----------------------------------------------------------------------------o||--|
|-9-9-9-12-12-9-9-12-12-10-10-9-9-10-10-9-9-9-12-12-9-9-12-12-10-10-9-9-10-10--||--|
|------------------------------------------------------------------------------||--|
|-----------------------------------------------------------------------------o||--|
|------------------------------------------------------------------------------||--|
|
|------------------------------------------------------------------------------||--|
|-----------------------------------------------------------------------------o||--|
|------------------------------------------------------------------------------||--|
|-5-5-5-5--5--5-5-5--5--5--5--5-5-5--5--5-5-5-5--5--5-5-5--5--5--5--5-5-5--5---||--|
|-3-3-3-3--3--3-3-3--3--3--3--3-3-3--3--3-3-3-3--3--3-3-3--3--3--3--3-3-3--3--o||--|
|------------------------------------------------------------------------------||--|


    M.M. = 100
||----------------------------------------------|------------------------|
||o-----8-8-8-8-8-8-8-8-7-----8-8-8-8-8-8-8-8-7-|-----8-8-8-8-8-8-8-8-7--|
||----------------------------------------------|-0-0--------------------|
||--9-9-------------------9-9-------------------|------------------------|
||o---------------------------------------------|------------------------|
||----------------------------------------------|------------------------|
|
||----------------------------------------------|------------------------|
||o---------------------------------------------|------------------------|
||----------------------------------------------|------------------------|
||------9-9-9-9-9-9-9-9-7-----9-9-9-9-9-9-9-9-7-|-9-9-9-9-9-9-9-9-9-9-7--|
||o-7-7-------------------7-7-------------------|------------------------|
||----------------------------------------------|------------------------|


                                           M.M. = 120
|----------------------------------||-----------|--------------------|-----------|---------------|--|
|-------10-10-10-10-10-10-10-10-8-o||-----------|--------------------|-----------|---------------|--|
|----------------------------------||-9------9\-|-2----4----5--------|-----------|-5----4b5r4----|--|
|-7--7-----------------------------||-----------|--------------------|-3------3--|---------------|--|
|---------------------------------o||-----------|--------------------|-----------|---------------|--|
|----------------------------------||-----------|--------------------|-----------|---------------|--|
|
|----------------------------------||-----------|--------------------|-----------|---------------|--|
|---------------------------------o||-----------|--------------------|-----------|---------------|--|
|----------------------------------||-----------|--------------------|-----------|---------------|--|
|-10-10-10-10-10-10-10-10-12-12-9--||-----------|--------------------|-----------|---------------|--|
|---------------------------------o||-7---------|-12---10---10-12-10-|-8---------|-8-------------|--|
|----------------------------------||-5---------|--------------------|-----------|---------------|--|


||------------|--------------------|-----------|----------------------||
||o-----------|--------------------|-----------|---------------------o||
||--9------9\-|-2----4----5--------|-----------|-5---------4b5r4------||
||------------|--------------------|-3------3--|----------------------||
||o-----------|--------------------|-----------|---------------------o||
||------------|--------------------|-----------|----------------------||
|
||------------|--------------------|-----------|----------------------||
||o-----------|--------------------|-----------|---------------------o||
||------------|--------------------|-----------|----------------------||
||------------|--------------------|-----------|-10---10-9------------||
||o-7---------|-12---10---10-12-10-|-8------8--|----8-------------8--o||
||--5---------|--------------------|-----------|----------------------||
|
||------------|--------------------|-----------|----------------------||
||o-----------|--------------------|-----------|---------------------o||
||------------|--------------------|-----------|----------------------||
||--7---------|-10---9----9--10-9--|-7------7--|-10---10-9------------||
||o-----------|--------------------|-----------|----8-------------8--o||
||------------|--------------------|-----------|----------------------||


  T    T    T    T    T    T    T    T      T    T    T    T    T    T    T    T
|-----------------------------------------|------------------------------------------|
|-----------------------------------------|-11-8------11-8------11-8------11-8-------|
|-12-7------12-7------12-7------12-7------|------12-8------12-8------12-8------12-8--|
|------12-5------12-5------12-5------12-5-|------------------------------------------|
|-----------------------------------------|------------------------------------------|
|-----------------------------------------|------------------------------------------|


  T    T     T    T     T    T     T    T       T   T   T   T   T   T   T   T
|---------------------------------------------|---------------------------------|--|
|---------------------------------------------|---------------------------------|--|
|-12-8-------12-8-------12-8-------12-8-------|-8-2-----8-2-----8-2-----8-2-----|--|
|------12-10------12-10------12-10------12-10-|-----8-3-----8-3-----8-3-----8-3-|--|
|---------------------------------------------|---------------------------------|--|
|---------------------------------------------|---------------------------------|--|


    T    T    T    T    T    T    T    T      T    T    T    T    T    T    T    T
||------------------------------------------|------------------------------------------|
||o-----------------------------------------|-11-8------11-8------11-8------11-8-------|
||--12-7------12-7------12-7------12-7------|------12-8------12-8------12-8------12-8--|
||-------12-5------12-5------12-5------12-5-|------------------------------------------|
||o-----------------------------------------|------------------------------------------|
||------------------------------------------|------------------------------------------|
|
||------------------------------------------|------------------------------------------|
||o-----------------------------------------|------------------------------------------|
||------------------------------------------|------------------------------------------|
||------------------------------------------|-8----------------------------------------|
||o-5---------------------------------------|-6----------------------------------------|
||--3---------------------------------------|------------------------------------------|


  T    T     T    T     T    T     T    T       T   T   T   T   T    T   T   T
|---------------------------------------------|-----------------------------------||--|
|---------------------------------------------|----------------------------------o||--|
|-12-8-------12-8-------12-8-------12-8-------|-8-2-----8-2-----8--2-----8-2------||--|
|------12-10------12-10------12-10------12-10-|-----8-3-----8-3------8-3-----8-3--||--|
|---------------------------------------------|----------------------------------o||--|
|---------------------------------------------|-----------------------------------||--|
|
|---------------------------------------------|-----------------------------------||--|
|---------------------------------------------|----------------------------------o||--|
|---------------------------------------------|-----------------------------------||--|
|-5-------------------------------------------|-3---------------------------------||--|
|-3-------------------------------------------|-1---------------13---------------o||--|
|---------------------------------------------|------------------1----------------||--|


|
|
|
|
|
|
|
|
|
|
|
|
|


--------------------------------------------------------------------------------
Legend
------

h = hammer-on; p = pull-off; b = bend; r = bend release; / = slide up/down; [5] = nat. harmonic; <5> = art. harmonic; ~ = vibrato; tr = trill; T = tap; TP = trem. picking; PM = palm muting; | = bar; || = double bar; ||o = repeat start; *|| = repeat end; *| = double bar (end); : = bar (freetime); d = tremolo bar dive; u = tremolo bar up; = = hold (bend or tremolo bar)
--------------------------------------------------------------------------------

** Generated using Power Tab Editor by Brad Larsen: The Official Power Tab Web Site