#----------------------------------PLEASE NOTE---------------------------------#
#This file is the author's own work and represents their interpretation of the #
#song. You may only use this file for private study, scholarship, or research. #
#------------------------------------------------------------------------------#

THE GODLESS SYMPHONY
As recorded by Disinterment
(From the 1997 LP recording ENDLESS)

Words and Music by Kris Norris
Arranged by Disinterment
Transcribed by Kris Norris


  PM|             PM|                         PM|             PM|
|-------------------------------------------|---------------------------------------------|--|
|-------------------------------------------|---------------------------------------------|--|
|-------------------------------------------|---------------------------------------------|--|
|----p12-10p12-10----p12-10p12-10h10-12/-14-|----p12-10p12-10----p12-10p12-10-9h9p10-9/-7-|--|
|-0-0-------------0-0-----------------------|-8-8-------------8-8-------------------------|--|
|-------------------------------------------|---------------------------------------------|--|


    PM|             PM|                         PM|             PM|
||--------------------------------------------|----------------------------------------------||--|
||o-------------------------------------------|---------------------------------------------o||--|
||--------------------------------------------|----------------------------------------------||--|
||-----p12-10p12-10----p12-10p12-10h10-12/-14-|----p12-10p12-10----p12-10p12-10-9h9p10-9/-7--||--|
||o-0-0-------------0-0-----------------------|-8-8-------------8-8-------------------------o||--|
||--------------------------------------------|----------------------------------------------||--|
|
||--------------------------------------------|----------------------------------------------||--|
||o-------------------------------------------|---------------------------------------------o||--|
||--------------------------------------------|----------------------------------------------||--|
||--------------------------------------------|----------------------------------------------||--|
||o-7-7-------------7-7-----------------------|-3-3-------------3-3-------------------------o||--|
||--5-5-------------5-5-----------------------|-1-1-------------1-1--------------------------||--|


    PM|             PM|                         PM|             PM|
||--------------------------------------------|----------------------------------------------||--|
||o-------------------------------------------|---------------------------------------------o||--|
||--------------------------------------------|----------------------------------------------||--|
||-----p12-10p12-10----p12-10p12-10h10-12/-14-|----p12-10p12-10----p12-10p12-10-9h9p10-9/-7--||--|
||o-0-0-------------0-0-----------------------|-8-8-------------8-8-------------------------o||--|
||--------------------------------------------|----------------------------------------------||--|
|
||--------------------------------------------|----------------------------------------------||--|
||o-------------------------------------------|---------------------------------------------o||--|
||-----p10-9-p10-9-----p10-9-p10-9-h9--10/-12-|----p10-9-p10-9-----p10-9-p10-9--7h7p9--7/-5--||--|
||--7-7-------------7-7-----------------------|-7-7-------------7-7--------------------------||--|
||o-------------------------------------------|---------------------------------------------o||--|
||--------------------------------------------|----------------------------------------------||--|
|
||--------------------------------------------|----------------------------------------------||--|
||o-------------------------------------------|---------------------------------------------o||--|
||--------------------------------------------|----------------------------------------------||--|
||--------------------------------------------|----------------------------------------------||--|
||o-7--------------------------------------5--|-3-----------------------------------------5-o||--|
||--5--------------------------------------3--|-1-----------------------------------------3--||--|


    TPTP TP TP TPTP TP    TPTP TP TP TPTP TP    TPTP TP TP TPTP TP    TP TP TP TP TP TP TP
||----------------------|---------------------|---------------------|------------------------||
||o---------------------|---------------------|---------------------|-----------------------o||
||----------------------|---------------------|---------------------|------------------------||
||----12-10-12-9-10-7---|---12-10-12-9-10-7---|---12-10-12-9-10-7---|----12-10-12-10-12-14---||
||o-0-------------------|-0-------------------|-8-------------------|-10--------------------o||
||----------------------|---------------------|---------------------|------------------------||
|
||----------------------|---------------------|---------------------|------------------------||
||o---------------------|---------------------|---------------------|-----------------------o||
||----10-9--10-7-9--5---|---10-9--10-7-9--5---|---10-9--10-7-9--5---|----10-9--10-9--10-12---||
||--7-------------------|-7-------------------|-7-------------------|-9----------------------||
||o---------------------|---------------------|---------------------|-----------------------o||
||----------------------|---------------------|---------------------|------------------------||
|
||----------------------|---------------------|---------------------|------------------------||
||o---------------------|---------------------|---------------------|-----------------------o||
||----------------------|---------------------|---------------------|------------------------||
||----------------------|---------------------|---------------------|------------------------||
||o-7-------------------|-7-------------------|-3-------------------|-5---------------------o||
||--5-------------------|-5-------------------|-1-------------------|-3----------------------||


||-----------------------|----------------------|-----------------------||--|
||o----------------------|----------------------|----------------------o||--|
||-----h9-10-----9-------|----h9-10-----9-------|-----------------------||--|
||----7--------------10--|---7--------------10--|---9\-10---10\-12------||--|
||o-0--------------------|-0--------------------|-8-------8--------10--o||--|
||-----------------------|----------------------|-----------------------||--|
|
||-----------------------|----------------------|-----------------------||--|
||o----------------------|----------------------|----------------------o||--|
||------9h7-p9-7---------|-----9h7-p9-7---------|--h7--9----9\--10------||--|
||----7----------10--7---|---7----------10--7---|-7-------7--------10---||--|
||o-0--------------------|-0--------------------|----------------------o||--|
||-----------------------|----------------------|-----------------------||--|


                                                PM      PM
|----------------------|----------------------|----------------------|
|----------------------|----------------------|----------------------|
|----h9-10-----9-------|----h9-10-----9-------|----------------------|
|---7--------------10--|---7--------------10--|---9\-10---10\-12-----|
|-0--------------------|-0--------------------|-8-------8--------10--|
|----------------------|----------------------|----------------------|
|
|----------------------|----------------------|----------------------|
|----------------------|----------------------|----------------------|
|-----9h7-p9-7---------|-----9h7-p9-7---------|--h7--9----9\--10-----|
|---7----------10--7---|---7----------10--7---|-7-------7--------10--|
|-0--------------------|-0--------------------|----------------------|
|----------------------|----------------------|----------------------|
|
|----------------------|----------------------|----------------------|
|----------------------|----------------------|----------------------|
|----------------------|----------------------|----------------------|
|----------------------|----------------------|---10-10---10\-12-12--|
|----------------------|----------------------|-8--8--8-8--8--10-10--|
|----------------------|----------------------|----------------------|


||---------------------------|------------------------|------------------------||--|
||o--------------------------|------------------------|-----------------------o||--|
||-----h9-10-----9-----------|----h9-10-----9---------|------------------------||--|
||----7---------------10-----|---7---------------10---|---9\-10---10\-12-------||--|
||o-0------------------------|-0----------------------|-8-------8--------10---o||--|
||---------------------------|------------------------|------------------------||--|
|
||---------------------------|------------------------|------------------------||--|
||o--------------------------|------------------------|-----------------------o||--|
||------9h7-p9-7-------------|-----9h7-p9-7-----------|--h7--9----9\--10-------||--|
||----7----------10---7------|---7----------10---7----|-7-------7--------10----||--|
||o-0------------------------|-0----------------------|-----------------------o||--|
||---------------------------|------------------------|------------------------||--|
|
||---------------------------|------------------------|------------------------||--|
||o--------------------------|------------------------|-----------------------o||--|
||---------------------------|------------------------|------------------------||--|
||---------------------------|------------------------|------------------------||--|
||o---7---7---------7----7---|---7---7---------7----7-|---3-----3-----5-----5-o||--|
||----5---5---------5----5---|---5---5---------5----5-|---1-----1-----3-----3--||--|


     M.M. = 75
||---------------6h5p6-5---5-------|----------------------------------||--|
||o--------8-6-----------8---6--6--|-------6-4-3-4h3p4-3---3-h4-6-4--o||--|
||-----7-------7-------------------|---7-----------------5------------||--|
||---5---5-------------------------|-5---5----------------------------||--|
||o--------------------------------|---------------------------------o||--|
||---------------------------------|----------------------------------||--|
|
||---------------------------------|----------------------------------||--|
||o--------------8h6p8-6-6-6-8\-10-|---------------------------------o||--|
||---------------------------------|-------------5h3p5-3---3\-8-7-----||--|
||---------------------------------|-8-------------------7------------||--|
||o--5-----------------------------|-6-------------------------------o||--|
||---3-----------------------------|----------------------------------||--|


||--------------6-5-6-5---5-----|--------------------------------|
||o-------8-6-----------8---6-6-|-------6-4-3-4-3-4-3---3-4-6-3--|
||----7-------7-----------------|---7-----------------5----------|
||--5---5-----------------------|-5---5--------------------------|
||o-----------------------------|--------------------------------|
||------------------------------|--------------------------------|
|
||------------------------------|--------------------------------|
||o-----------------------------|--------------------------------|
||------------------------------|--------------------------------|
||------------------------------|-8-------------8-8-8-8-7-7-7-7--|
||o-5-----------------------6-5-|-6-6-6-6-6-6-6------------------|
||--3-3-3-3-3-3-3-3-3-3-3-3-----|--------------------------------|


--------------------------------------------------------------------------------
Legend
------

h = hammer-on; p = pull-off; b = bend; r = bend release; / = slide up/down; [5] = nat. harmonic; <5> = art. harmonic; ~ = vibrato; tr = trill; T = tap; TP = trem. picking; PM = palm muting; | = bar; || = double bar; ||o = repeat start; *|| = repeat end; *| = double bar (end); : = bar (freetime); d = tremolo bar dive; u = tremolo bar up; = = hold (bend or tremolo bar)
--------------------------------------------------------------------------------

** Generated using Power Tab Editor by Brad Larsen: The Official Power Tab Web Site